  0
SECTION
  2
HEADER
  9
$ACADVER
  1
AC1009
  9
$INSBASE
 10
576.7247237492532
 20
95.54005298355239
 30
0.0
  9
$EXTMIN
 10
576.6211087112125
 20
95.54005298355239
 30
0.0
  9
$EXTMAX
 10
672.4111758308796
 20
166.7136036704267
 30
0.0
  9
$LIMMIN
 10
0.0
 20
0.0
  9
$LIMMAX
 10
420.0
 20
297.0
  9
$ORTHOMODE
 70
     0
  9
$REGENMODE
 70
     1
  9
$FILLMODE
 70
     1
  9
$QTEXTMODE
 70
     0
  9
$MIRRTEXT
 70
     0
  9
$DRAGMODE
 70
     2
  9
$LTSCALE
 40
1.0
  9
$OSMODE
 70
     0
  9
$ATTMODE
 70
     1
  9
$TEXTSIZE
 40
3.5
  9
$TRACEWID
 40
0.1
  9
$TEXTSTYLE
  7
STANDARD
  9
$CLAYER
  8
ITEM_50
  9
$CELTYPE
  6
BYLAYER
  9
$CECOLOR
 62
   256
  9
$DIMSCALE
 40
1.0
  9
$DIMASZ
 40
2.0
  9
$DIMEXO
 40
1.0
  9
$DIMDLI
 40
8.0
  9
$DIMRND
 40
0.0
  9
$DIMDLE
 40
0.0
  9
$DIMEXE
 40
2.0
  9
$DIMTP
 40
0.1
  9
$DIMTM
 40
0.1
  9
$DIMTXT
 40
3.5
  9
$DIMCEN
 40
2.0
  9
$DIMTSZ
 40
0.0
  9
$DIMTOL
 70
     0
  9
$DIMLIM
 70
     0
  9
$DIMTIH
 70
     0
  9
$DIMTOH
 70
     0
  9
$DIMSE1
 70
     0
  9
$DIMSE2
 70
     0
  9
$DIMTAD
 70
     1
  9
$DIMZIN
 70
     8
  9
$DIMBLK
  1

  9
$DIMASO
 70
     1
  9
$DIMSHO
 70
     1
  9
$DIMPOST
  1

  9
$DIMAPOST
  1

  9
$DIMALT
 70
     0
  9
$DIMALTD
 70
     2
  9
$DIMALTF
 40
25.39999999999999
  9
$DIMLFAC
 40
1.0
  9
$DIMTOFL
 70
     1
  9
$DIMTVP
 40
0.0
  9
$DIMTIX
 70
     0
  9
$DIMSOXD
 70
     0
  9
$DIMSAH
 70
     0
  9
$DIMBLK1
  1

  9
$DIMBLK2
  1

  9
$DIMSTYLE
  2
*UNNAMED
  9
$DIMCLRD
 70
     0
  9
$DIMCLRE
 70
     0
  9
$DIMCLRT
 70
     0
  9
$DIMTFAC
 40
1.0
  9
$DIMGAP
 40
0.09
  9
$LUNITS
 70
     2
  9
$LUPREC
 70
     3
  9
$SKETCHINC
 40
0.1
  9
$FILLETRAD
 40
20.0
  9
$AUNITS
 70
     0
  9
$AUPREC
 70
     1
  9
$MENU
  1

  9
$ELEVATION
 40
0.0
  9
$PELEVATION
 40
0.0
  9
$THICKNESS
 40
0.0
  9
$LIMCHECK
 70
     0
  9
$BLIPMODE
 70
     0
  9
$CHAMFERA
 40
5.0
  9
$CHAMFERB
 40
5.0
  9
$SKPOLY
 70
     1
  9
$TDCREATE
 40
2448895.566986111
  9
$TDUPDATE
 40
2449393.451178588
  9
$TDINDWG
 40
0.0001215278
  9
$TDUSRTIMER
 40
0.0001215278
  9
$USRTIMER
 70
     1
  9
$ANGBASE
 50
0.0
  9
$ANGDIR
 70
     0
  9
$PDMODE
 70
     3
  9
$PDSIZE
 40
0.0
  9
$PLINEWID
 40
0.0
  9
$COORDS
 70
     2
  9
$SPLFRAME
 70
     0
  9
$SPLINETYPE
 70
     6
  9
$SPLINESEGS
 70
     8
  9
$ATTDIA
 70
     1
  9
$ATTREQ
 70
     1
  9
$HANDLING
 70
     0
  9
$HANDSEED
  5
19E
  9
$SURFTAB1
 70
     6
  9
$SURFTAB2
 70
     6
  9
$SURFTYPE
 70
     6
  9
$SURFU
 70
     6
  9
$SURFV
 70
     6
  9
$UCSNAME
  2

  9
$UCSORG
 10
0.0
 20
0.0
 30
0.0
  9
$UCSXDIR
 10
1.0
 20
0.0
 30
0.0
  9
$UCSYDIR
 10
0.0
 20
1.0
 30
0.0
  9
$PUCSNAME
  2

  9
$PUCSORG
 10
0.0
 20
0.0
 30
0.0
  9
$PUCSXDIR
 10
1.0
 20
0.0
 30
0.0
  9
$PUCSYDIR
 10
0.0
 20
1.0
 30
0.0
  9
$USERI1
 70
     0
  9
$USERI2
 70
     3
  9
$USERI3
 70
    15
  9
$USERI4
 70
     0
  9
$USERI5
 70
     0
  9
$USERR1
 40
1.0
  9
$USERR2
 40
1.0
  9
$USERR3
 40
0.0
  9
$USERR4
 40
1.0
  9
$USERR5
 40
0.0
  9
$WORLDVIEW
 70
     5
  9
$SHADEDGE
 70
     3
  9
$SHADEDIF
 70
    70
  9
$TILEMODE
 70
     1
  9
$MAXACTVP
 70
    16
  9
$PINSBASE
 10
0.0
 20
0.0
 30
0.0
  9
$PLIMCHECK
 70
     0
  9
$PEXTMIN
 10
1.000000000000000E+20
 20
1.000000000000000E+20
 30
1.000000000000000E+20
  9
$PEXTMAX
 10
-1.000000000000000E+20
 20
-1.000000000000000E+20
 30
-1.000000000000000E+20
  9
$PLIMMIN
 10
0.0
 20
0.0
  9
$PLIMMAX
 10
12.0
 20
9.0
  9
$UNITMODE
 70
     0
  9
$VISRETAIN
 70
     0
  9
$PLINEGEN
 70
     0
  9
$PSLTSCALE
 70
     0
  9
$TREEDEPTH
 70
  3020
  9
$DWGCODEPAGE
  3
undefined
  0
ENDSEC
  0
SECTION
  2
TABLES
  0
TABLE
  2
VPORT
 70
     2
  0
VPORT
  2
*ACTIVE
 70
     0
 10
0.0
 20
0.0
 11
1.0
 21
1.0
 12
625.8601991029628
 22
134.0572688328586
 13
0.0
 23
0.0
 14
1.0
 24
1.0
 15
10.0
 25
10.0
 16
0.0
 26
0.0
 36
1.0
 17
0.0
 27
0.0
 37
0.0
 40
77.03443169861253
 41
1.275675675675675
 42
50.0
 43
0.0
 44
0.0
 50
0.0
 51
0.0
 71
     0
 72
   100
 73
     1
 74
     0
 75
     0
 76
     0
 77
     0
 78
     0
  0
ENDTAB
  0
TABLE
  2
LTYPE
 70
     4
  0
LTYPE
  2
CONTINUOUS
 70
    64
  3
Solid line
 72
    65
 73
     0
 40
0.0
  0
LTYPE
  2
GEN
 70
    64
  3
----------------------
 72
    65
 73
     2
 40
10000000000.0
 49
0.0
 49
10000000000.0
  0
LTYPE
  2
ITEM-STRICHPUNKT
 70
    64
  3
__ . __ . __
 72
    65
 73
     4
 40
3.599999999999999
 49
2.399999999999999
 49
-0.6
 49
0.0
 49
-0.6
  0
LTYPE
  2
AUSGEZOGEN
 70
    64
  3
Solid line
 72
    65
 73
     0
 40
0.0
  0
ENDTAB
  0
TABLE
  2
LAYER
 70
     4
  0
LAYER
  2
0
 70
     0
 62
     7
  6
GEN
  0
LAYER
  2
ITEM_50
 70
    64
 62
     7
  6
CONTINUOUS
  0
LAYER
  2
ITEM_STP
 70
    64
 62
     4
  6
ITEM-STRICHPUNKT
  0
LAYER
  2
ITEM_HILFE
 70
    64
 62
     3
  6
AUSGEZOGEN
  0
ENDTAB
  0
TABLE
  2
STYLE
 70
     1
  0
STYLE
  2
STANDARD
 70
     0
 40
0.0
 41
1.0
 50
0.0
 71
     0
 42
3.5
  3
ISO8
  4

  0
ENDTAB
  0
TABLE
  2
VIEW
 70
     0
  0
ENDTAB
  0
TABLE
  2
UCS
 70
     0
  0
ENDTAB
  0
TABLE
  2
APPID
 70
     1
  0
APPID
  2
ACAD
 70
    64
  0
ENDTAB
  0
TABLE
  2
DIMSTYLE
 70
     0
  0
ENDTAB
  0
ENDSEC
  0
SECTION
  2
BLOCKS
  0
ENDSEC
  0
SECTION
  2
ENTITIES
  0
LINE
  8
ITEM_50
 10
577.9983775768575
 20
135.5400529835524
 30
0.0
 11
577.9983775768575
 21
95.54005298355239
 31
0.0
  0
LINE
  8
ITEM_50
 10
657.9676370203999
 20
135.5400529835524
 30
0.0
 11
657.9676370203999
 21
95.54005298355239
 31
0.0
  0
LINE
  8
ITEM_50
 10
577.9983775768575
 20
135.5400529835524
 30
0.0
 11
657.9676370203999
 21
135.5400529835524
 31
0.0
  0
LINE
  8
ITEM_50
 10
577.9983775768575
 20
95.54005298355241
 30
0.0
 11
657.9676370203999
 21
95.54005298355241
 31
0.0
  0
LINE
  8
ITEM_50
 10
584.5830072986287
 20
135.5400529835524
 30
0.0
 11
584.5830072986287
 21
95.54005298355241
 31
0.0
  0
LINE
  8
ITEM_50
 10
617.9830072986287
 20
135.5400529835524
 30
0.0
 11
617.9830072986287
 21
95.54005298355241
 31
0.0
  0
LINE
  8
ITEM_50
 10
651.3830072986288
 20
135.5400529835524
 30
0.0
 11
651.3830072986288
 21
95.54005298355241
 31
0.0
  0
LINE
  8
ITEM_STP
 10
617.9830072986287
 20
137.2668904445561
 30
0.0
 11
617.9830072986287
 21
132.6509545596315
 31
0.0
  0
ARC
  8
ITEM_50
 10
647.9302082986287
 20
148.748030099928
 30
0.0
 40
0.5
 50
224.994134
 51
39.35682099999999
  0
LINE
  8
ITEM_50
 10
645.8830072986288
 20
152.752583099928
 30
0.0
 11
645.8830072986288
 21
153.415335099928
 31
0.0
  0
ARC
  8
ITEM_50
 10
645.8830072986288
 20
151.639030099928
 30
0.0
 40
1.0
 50
27.0
 51
83.84936
  0
ARC
  8
ITEM_50
 10
646.0030072986287
 20
153.415335099928
 30
0.0
 40
0.12
 50
135.0
 51
180.0
  0
ARC
  8
ITEM_50
 10
646.0030072986287
 20
152.752583099928
 30
0.0
 40
0.12
 50
180.0
 51
263.8493599999999
  0
LINE
  8
ITEM_50
 10
645.9181542986289
 20
153.500188099928
 30
0.0
 11
649.3972202986287
 21
156.979254099928
 31
0.0
  0
LINE
  8
ITEM_50
 10
646.7740142986287
 20
152.093019099928
 30
0.0
 11
648.3168142986287
 21
149.065104099928
 31
0.0
  0
ARC
  8
ITEM_50
 10
588.0358062986288
 20
148.748030099928
 30
0.0
 40
0.5
 50
140.643179
 51
315.005866
  0
LINE
  8
ITEM_50
 10
590.0478602986288
 20
153.500188099928
 30
0.0
 11
586.5687932986288
 21
156.979254099928
 31
0.0
  0
ARC
  8
ITEM_50
 10
589.9630072986287
 20
152.752583099928
 30
0.0
 40
0.12
 50
276.15064
 51
0.0
  0
ARC
  8
ITEM_50
 10
589.9630072986287
 20
153.415335099928
 30
0.0
 40
0.12
 50
0.0
 51
45.0
  0
ARC
  8
ITEM_50
 10
590.0830072986288
 20
151.639030099928
 30
0.0
 40
1.0
 50
96.15063999999999
 51
153.0
  0
LINE
  8
ITEM_50
 10
590.0830072986288
 20
152.752583099928
 30
0.0
 11
590.0830072986288
 21
153.415335099928
 31
0.0
  0
LINE
  8
ITEM_50
 10
589.1920002986287
 20
152.093019099928
 30
0.0
 11
587.6492002986287
 21
149.065104099928
 31
0.0
  0
LINE
  8
ITEM_50
 10
618.2830072986287
 20
164.748030099928
 30
0.0
 11
631.6830072986288
 21
164.748030099928
 31
0.0
  0
LINE
  8
ITEM_50
 10
604.2830072986287
 20
164.748030099928
 30
0.0
 11
617.6830072986288
 21
164.748030099928
 31
0.0
  0
ARC
  8
ITEM_50
 10
603.9830072986287
 20
164.692252099928
 30
0.0
 40
0.12
 50
236.309932
 51
303.6900679999999
  0
LINE
  8
ITEM_50
 10
603.9164432986287
 20
164.592406099928
 30
0.0
 11
603.6830072986288
 21
164.748030099928
 31
0.0
  0
LINE
  8
ITEM_50
 10
604.2830072986287
 20
164.748030099928
 30
0.0
 11
604.0495712986287
 21
164.592406099928
 31
0.0
  0
LINE
  8
ITEM_50
 10
617.6830072986288
 20
164.748030099928
 30
0.0
 11
617.9164432986287
 21
164.592406099928
 31
0.0
  0
LINE
  8
ITEM_50
 10
618.0495712986287
 20
164.592406099928
 30
0.0
 11
618.2830072986287
 21
164.748030099928
 31
0.0
  0
ARC
  8
ITEM_50
 10
617.9830072986287
 20
164.692252099928
 30
0.0
 40
0.12
 50
236.309932
 51
303.6900679999999
  0
ARC
  8
ITEM_50
 10
617.9830072986287
 20
164.692252099928
 30
0.0
 40
0.12
 50
236.309932
 51
303.6900679999999
  0
LINE
  8
ITEM_50
 10
617.9164432986287
 20
164.592406099928
 30
0.0
 11
617.6830072986288
 21
164.748030099928
 31
0.0
  0
LINE
  8
ITEM_50
 10
618.2830072986287
 20
164.748030099928
 30
0.0
 11
618.0495712986287
 21
164.592406099928
 31
0.0
  0
LINE
  8
ITEM_50
 10
603.6830072986288
 20
164.748030099928
 30
0.0
 11
584.8830072986288
 21
164.748030099928
 31
0.0
  0
LINE
  8
ITEM_50
 10
617.9830072986287
 20
162.248030099928
 30
0.0
 11
589.9830072986287
 21
162.248030099928
 31
0.0
  0
ARC
  8
ITEM_50
 10
579.9830329530345
 20
157.4103508737343
 30
0.0
 40
2.0
 50
180.0004399999999
 51
101.537399
  0
ARC
  8
ITEM_50
 10
581.9830072986287
 20
160.748030099928
 30
0.0
 40
3.0
 50
84.97616200000001
 51
180.0004399999999
  0
ARC
  8
ITEM_50
 10
581.9830072986287
 20
160.748030099928
 30
0.0
 40
4.0
 50
84.97600000000001
 51
180.0004399999999
  0
LINE
  8
ITEM_50
 10
578.983007589826
 20
160.7480070463033
 30
0.0
 11
578.9830145473031
 21
159.8598331644301
 31
0.0
  0
LINE
  8
ITEM_50
 10
577.9830067308762
 20
160.7479960996166
 30
0.0
 11
577.9830328443043
 21
157.4103358658949
 31
0.0
  0
ARC
  8
ITEM_50
 10
579.483013805474
 20
159.8598367330302
 30
0.0
 40
0.5
 50
180.0004399999999
 51
281.5373989999999
  0
LINE
  8
ITEM_50
 10
587.9830072986287
 20
160.248030099928
 30
0.0
 11
587.9830072986287
 21
160.098850099928
 31
0.0
  0
LINE
  8
ITEM_50
 10
589.3888942986288
 20
156.704737099928
 30
0.0
 11
591.2761952986288
 21
154.817437099928
 31
0.0
  0
ARC
  8
ITEM_50
 10
592.7830072986287
 20
160.098850099928
 30
0.0
 40
4.799999999999999
 50
180.0
 51
225.0
  0
LINE
  8
ITEM_50
 10
584.2830072986287
 20
164.748030099928
 30
0.0
 11
581.9830072986287
 21
164.748030099928
 31
0.0
  0
ARC
  8
ITEM_50
 10
582.5830072986288
 20
163.248030099928
 30
0.0
 40
0.5
 50
0.0
 51
90.0
  0
ARC
  8
ITEM_50
 10
587.0237432986289
 20
163.498030099928
 30
0.0
 40
0.25
 50
316.826546
 51
90.0
  0
ARC
  8
ITEM_50
 10
585.5830072986288
 20
163.248030099928
 30
0.0
 40
0.5
 50
90.0
 51
180.0
  0
LINE
  8
ITEM_50
 10
585.5830072986288
 20
163.748030099928
 30
0.0
 11
587.0237432986289
 21
163.748030099928
 31
0.0
  0
ARC
  8
ITEM_50
 10
584.5830072986288
 20
164.692252099928
 30
0.0
 40
0.12
 50
236.309932
 51
303.6900679999999
  0
LINE
  8
ITEM_50
 10
584.5164432986287
 20
164.592406099928
 30
0.0
 11
584.2830072986287
 21
164.748030099928
 31
0.0
  0
LINE
  8
ITEM_50
 10
584.8830072986288
 20
164.748030099928
 30
0.0
 11
584.6495712986288
 21
164.592406099928
 31
0.0
  0
LINE
  8
ITEM_50
 10
582.2457173936518
 20
163.7365051970393
 30
0.0
 11
582.8434212208655
 21
163.6839605967929
 31
0.0
  0
LINE
  8
ITEM_50
 10
583.0830072986288
 20
162.248030099928
 30
0.0
 11
583.0830072986288
 21
163.248030099928
 31
0.0
  0
LINE
  8
ITEM_50
 10
585.0830072986288
 20
163.248030099928
 30
0.0
 11
585.0830072986288
 21
162.248030099928
 31
0.0
  0
ARC
  8
ITEM_50
 10
589.9830072986287
 20
160.248030099928
 30
0.0
 40
2.0
 50
90.0
 51
180.0
  0
LINE
  8
ITEM_50
 10
588.3893952986288
 20
148.394513099928
 30
0.0
 11
591.2763762986287
 21
151.282084099928
 31
0.0
  0
ARC
  8
ITEM_50
 10
589.5084282986288
 20
153.049670099928
 30
0.0
 40
2.5
 50
315.005866
 51
45.0
  0
LINE
  8
ITEM_50
 10
585.0830072986288
 20
162.248030099928
 30
0.0
 11
583.0830072986288
 21
162.248030099928
 31
0.0
  0
LINE
  8
ITEM_50
 10
650.8830072986288
 20
162.248030099928
 30
0.0
 11
652.8830072986288
 21
162.248030099928
 31
0.0
  0
ARC
  8
ITEM_50
 10
646.4575862986287
 20
153.049670099928
 30
0.0
 40
2.5
 50
135.0
 51
224.994134
  0
LINE
  8
ITEM_50
 10
647.5766192986288
 20
148.394513099928
 30
0.0
 11
644.6896382986287
 21
151.282084099928
 31
0.0
  0
LINE
  8
ITEM_50
 10
632.2830072986287
 20
164.748030099928
 30
0.0
 11
632.0495712986287
 21
164.592406099928
 31
0.0
  0
LINE
  8
ITEM_50
 10
631.9164432986287
 20
164.592406099928
 30
0.0
 11
631.6830072986288
 21
164.748030099928
 31
0.0
  0
ARC
  8
ITEM_50
 10
631.9830072986287
 20
164.692252099928
 30
0.0
 40
0.12
 50
236.309932
 51
303.6900679999999
  0
ARC
  8
ITEM_50
 10
631.9830072986287
 20
164.692252099928
 30
0.0
 40
0.12
 50
236.309932
 51
303.6900679999999
  0
LINE
  8
ITEM_50
 10
632.0495712986287
 20
164.592406099928
 30
0.0
 11
632.2830072986287
 21
164.748030099928
 31
0.0
  0
LINE
  8
ITEM_50
 10
631.6830072986288
 20
164.748030099928
 30
0.0
 11
631.9164432986287
 21
164.592406099928
 31
0.0
  0
ARC
  8
ITEM_50
 10
645.9830072986287
 20
160.248030099928
 30
0.0
 40
2.0
 50
0.0
 51
90.0
  0
LINE
  8
ITEM_50
 10
650.8830072986288
 20
163.248030099928
 30
0.0
 11
650.8830072986288
 21
162.248030099928
 31
0.0
  0
LINE
  8
ITEM_50
 10
652.8830072986288
 20
162.248030099928
 30
0.0
 11
652.8830072986288
 21
163.248030099928
 31
0.0
  0
LINE
  8
ITEM_50
 10
653.7202962074477
 20
163.7365051094662
 30
0.0
 11
653.122593376392
 21
163.6839605967929
 31
0.0
  0
LINE
  8
ITEM_50
 10
651.0830072986288
 20
164.748030099928
 30
0.0
 11
651.3164432986288
 21
164.592406099928
 31
0.0
  0
LINE
  8
ITEM_50
 10
651.4495712986288
 20
164.592406099928
 30
0.0
 11
651.6830072986288
 21
164.748030099928
 31
0.0
  0
ARC
  8
ITEM_50
 10
651.3830072986288
 20
164.692252099928
 30
0.0
 40
0.12
 50
236.309932
 51
303.6900679999999
  0
LINE
  8
ITEM_50
 10
650.3830072986288
 20
163.748030099928
 30
0.0
 11
648.9422712986288
 21
163.748030099928
 31
0.0
  0
ARC
  8
ITEM_50
 10
650.3830072986288
 20
163.248030099928
 30
0.0
 40
0.5
 50
0.0
 51
90.0
  0
ARC
  8
ITEM_50
 10
648.9422712986288
 20
163.498030099928
 30
0.0
 40
0.25
 50
90.0
 51
223.1734539999999
  0
ARC
  8
ITEM_50
 10
653.3830072986288
 20
163.248030099928
 30
0.0
 40
0.5
 50
90.0
 51
180.0
  0
LINE
  8
ITEM_50
 10
651.6830072986288
 20
164.748030099928
 30
0.0
 11
653.9830072986287
 21
164.748030099928
 31
0.0
  0
ARC
  8
ITEM_50
 10
643.1830072986288
 20
160.098850099928
 30
0.0
 40
4.799999999999999
 50
315.0
 51
0.0
  0
LINE
  8
ITEM_50
 10
646.5771192986287
 20
156.704737099928
 30
0.0
 11
644.6898192986288
 21
154.817437099928
 31
0.0
  0
LINE
  8
ITEM_50
 10
647.9830072986287
 20
160.248030099928
 30
0.0
 11
647.9830072986287
 21
160.098850099928
 31
0.0
  0
LINE
  8
ITEM_50
 10
617.9830072986287
 20
162.248030099928
 30
0.0
 11
645.9830072986287
 21
162.248030099928
 31
0.0
  0
ARC
  8
ITEM_50
 10
656.4830007917837
 20
159.8598367330302
 30
0.0
 40
0.5
 50
258.462601
 51
359.9995599999999
  0
LINE
  8
ITEM_50
 10
657.9830068702232
 20
160.7479960120436
 30
0.0
 11
657.9829817529532
 21
157.4103358658949
 31
0.0
  0
LINE
  8
ITEM_50
 10
656.9830070074315
 20
160.7480070463033
 30
0.0
 11
656.9830000499543
 21
159.8598331644301
 31
0.0
  0
ARC
  8
ITEM_50
 10
653.9830072986287
 20
160.748030099928
 30
0.0
 40
4.0
 50
359.9995599999999
 51
95.024
  0
ARC
  8
ITEM_50
 10
653.9830072986287
 20
160.748030099928
 30
0.0
 40
3.0
 50
359.9995599999999
 51
95.02383799999998
  0
ARC
  8
ITEM_50
 10
655.982981644223
 20
157.4103508737343
 30
0.0
 40
2.0
 50
78.46260099999999
 51
359.9995599999999
  0
LINE
  8
ITEM_50
 10
632.2830072986287
 20
164.748030099928
 30
0.0
 11
651.0830072986288
 21
164.748030099928
 31
0.0
  0
LINE
  8
ITEM_STP
 10
617.9830072986287
 20
166.7136036704267
 30
0.0
 11
617.9830072986287
 21
148.2496119094249
 31
0.0
  0
POINT
  8
ITEM_HILFE
 10
577.9830072986287
 20
164.748030099928
 30
0.0
  0
POINT
  8
ITEM_HILFE
 10
657.9830072986287
 20
164.748030099928
 30
0.0
  0
POINT
  8
ITEM_HILFE
 10
617.9830072986287
 20
164.748030099928
 30
0.0
  0
ARC
  8
ITEM_50
 10
587.9830072986287
 20
158.393468099928
 30
0.0
 40
2.0
 50
180.0
 51
225.0
  0
LINE
  8
ITEM_50
 10
585.9830072986287
 20
158.393468099928
 30
0.0
 11
585.9830072986287
 21
160.248036099928
 31
0.0
  0
ARC
  8
ITEM_50
 10
590.4878502986288
 20
160.248036099928
 30
0.0
 40
4.5
 50
136.826546
 51
180.0
  0
ARC
  8
ITEM_50
 10
645.4781642986288
 20
160.2480360999281
 30
0.0
 40
4.5
 50
0.0000000000000987
 51
43.1734540000001
  0
LINE
  8
ITEM_50
 10
649.9830072986287
 20
158.393468099928
 30
0.0
 11
649.9830072986287
 21
160.2480360999281
 31
0.0
  0
ARC
  8
ITEM_50
 10
647.9830072986287
 20
158.393468099928
 30
0.0
 40
2.0
 50
315.0
 51
0.0000000000000987
  0
LINE
  8
ITEM_50
 10
603.9830072986287
 20
107.7900529835524
 30
0.0
 11
603.9830072986287
 21
95.54005298355239
 31
0.0
  0
CIRCLE
  8
ITEM_50
 10
603.9830072986287
 20
115.5400529835523
 30
0.0
 40
7.75
  0
LINE
  8
ITEM_50
 10
603.9830072986287
 20
135.5400529835524
 30
0.0
 11
603.9830072986287
 21
123.2900529835523
 31
0.0
  0
LINE
  8
ITEM_50
 10
631.9830072986303
 20
107.7900529835523
 30
0.0
 11
631.983007298631
 21
95.54005298355239
 31
0.0
  0
CIRCLE
  8
ITEM_50
 10
631.9830072986299
 20
115.5400529835523
 30
0.0
 40
7.75
  0
LINE
  8
ITEM_50
 10
631.9830072986287
 20
135.5400529835524
 30
0.0
 11
631.9830072986294
 21
123.2900529835524
 31
0.0
  0
LINE
  8
ITEM_50
 10
672.4111758308796
 20
164.748030099928
 30
0.0
 11
671.4111758308796
 21
164.748030099928
 31
0.0
  0
LINE
  8
ITEM_50
 10
672.4111758308796
 20
155.4103508737343
 30
0.0
 11
672.4111758308796
 21
164.748030099928
 31
0.0
  0
LINE
  8
ITEM_50
 10
671.4111758308796
 20
155.4103508737343
 30
0.0
 11
672.4111758308796
 21
155.4103508737343
 31
0.0
  0
LINE
  8
ITEM_50
 10
671.4111758308796
 20
164.748030099928
 30
0.0
 11
671.4111758308796
 21
155.4103508737343
 31
0.0
  0
ENDSEC
  0
EOF
